bulletproof
song: dulli
tabs: zanzi
intro: 
e-----------------------------------------------------------------
B-7/8-8-8-8-8-8-8-7/8-8-8-8-8-8-8-7/8-8-8-8-8-8-8-7/8-8-8-8-8-8-8-
G-0-0-0-0-0-0-0-0-0-0-0-0-0-0-0-0-0-0-0-0-0-0-0-0-0-0-0-0-0-0-0-0-
D-----------------------------------------------------------------
A-----------------------------------------------------------------
E-----------------------------------------------------------------
continued
e-----------------------------------------------------------------
B-7/8-8-8-8-8-8-8-7-7-7-7-7-7-7-7-5-5-5-5-5-5-5-5-7-7-7-7-7-7-7-7-
G-0-0-0-0-0-0-0-0-0-0-0-0-0-0-0-0-0-0-0-0-0-0-0-0-0-0-0-0-0-0-0-0-
D-----------------------------------------------------------------
A-----------------------------------------------------------------
E-----------------------------------------------------------------
continued
e-----------------------------------------------------------------
B-7/8-8-8-8-8-8-8-8-8-8-8-8-8-8-8-7-7-7-7-7-7-7-7-7-7-7-7-7-7-7-7-
G-0-0-0-0-0-0-0-0-0-0-0-0-0-0-0-0-0-0-0-0-0-0-0-0-0-0-0-0-0-0-0-0-
D-----------------------------------------------------------------
A-----------------------------------------------------------------
E-----------------------------------------------------------------
continued
e-----------------------------------------------------------------
B-8-8-8-8-8-8-8-8-8-8-8-8-8-8-8-8-7/8-5-5-5-5-5-5-7-7-7-7-7-7-7-7-
G-0-0-0-0-0-0-0-0-0-0-0-0-0-0-0-0-0-0-0-0-0-0-0-0-0-0-0-0-0-0-0-0-
D-----------------------------------------------------------------
A-----------------------------------------------------------------
E-----------------------------------------------------------------

Verse riff 1
e-----------------------------------------15-15-15-15-15-15-15-15-------------------------------
B-7/8-8-8-8-8-8-8-10-10-10-10-10-10-10-10-15-15-15-15-15-15-15-15-8-8-8-8-8-8-8-8-7-7-7-7-7-7-7-
G-0-0-0-0-0-0-0-0--0--0--0--0--0--0--0--0--0--0--0--0--0--0--0--0-0-0-0-0-0-0-0-0-0-0-0-0-0-0-0-
D-----------------------------------------------------------------------------------------------
A-----------------------------------------------------------------------------------------------
E-----------------------------------------------------------------------------------------------
Verse riff 2
e-----------------------------------------15-15-15-15-15-15-15-15-15-15-15-15-15-15-15-15-
B-7/8-8-8-8-8-8-8-10-10-10-10-10-10-10-10-15-15-15-15-15-15-15-15-15-15-15-15-15-15-15-15-
G-0-0-0-0-0-0-0-0--0--0--0--0--0--0--0--0--0--0--0--0--0--0--0--0--0--0--0--0--0--0--0--0-
D-----------------------------------------------------------------------------------------
A-----------------------------------------------------------------------------------------
E-----------------------------------------------------------------------------------------
verse riff 3
e------------------------
B------------------------
G------------------------
D--5-4--2----------------
A----------5---2-2h3-3---
E--------------3-3---3---


lyrics
Intro VERSE 1 Verse riff 1 Love I can't hide But it's been easier Since I said it now Verse riff 2 Love It don't end And I can't buy A friend Verse riff 3 I waited long The waiting's over So get on down This time we go a little lower Riff 4 ?????? VERSE 2 Verse riff 3 The sun has broke I stretch it out And throw some gas into the fire To tell the truth To tell it well It all depends upon the liar And if I scream, overboard I'm in this over my head Or whisper sweet Baby please, baby please Am I ded? CHORUS G5 D5 E5 Every time I dream about you, baby G5 D5 E5 With your hands all over me G5 D5 E5 I never forget anything G5 D5 E5 Don't forget that I'm asleep Verse riff 3 Go to sleep It's over now A final prayer for my friend You tell that fool, to make it good You have to start at the end And if I scream, overkill I'm in this over my head Or whisper sweet, baby please I must have meant what I said CHORUS Repeat VERSE 1 A long OUTRO that I donít have the guts to tab

back to black love index
back to fat bon jovi